  0
SECTION
  2
HEADER
  9
$ACADVER
  1
AC1009
  9
$EXTMAX
 10
40.0
 20
60.0
 30
0.0
  9
$EXTMIN
 10
0.0
 20
0.0
 30
0.0
  9
$INSUNITS
 70
     4
  9
$LUNITS
 70
     2
  9
$LUPREC
 70
     4
  9
$MEASUREMENT
 70
     1
  0
ENDSEC
  0
SECTION
  2
TABLES
  0
TABLE
  2
LAYER
 70
     1
  0
LAYER
  2
0
 70
     0
 62
     7
  6
Continuous
  0
LAYER
  2
Default
 70
     0
 62
    14
  6
Continuous
  0
ENDTAB
  0
TABLE
  2
APPID
 70
     1
  0
APPID
  2
ACAD
 70
     0
  0
ENDTAB
  0
ENDSEC
  0
SECTION
  2
ENTITIES
  0
CIRCLE
  8
Default
 10
10.0
 20
53.0
 30
0.0
 40
1.5
  0
CIRCLE
  8
Default
 10
30.0
 20
53.0
 30
0.0
 40
1.5
  0
CIRCLE
  8
Default
 10
10.0
 20
5.0
 30
0.0
 40
1.5
  0
CIRCLE
  8
Default
 10
30.0
 20
5.0
 30
0.0
 40
1.5
  0
POLYLINE
  8
Default
 66
     1
 10
0.0
 20
0.0
 30
0.0
 70
     0
  0
VERTEX
  8
Default
 10
0.0
 20
59.0
  0
VERTEX
  8
Default
 10
0.0
 20
50.0
  0
VERTEX
  8
Default
 10
3.0
 20
47.0
  0
VERTEX
  8
Default
 10
3.0
 20
2.0
  0
VERTEX
  8
Default
 10
5.0
 20
0.0
  0
VERTEX
  8
Default
 10
35.0
 20
0.0
  0
VERTEX
  8
Default
 10
40.0
 20
5.0
  0
VERTEX
  8
Default
 10
40.0
 20
59.0
  0
VERTEX
  8
Default
 10
39.0
 20
60.0
  0
VERTEX
  8
Default
 10
1.0
 20
60.0
  0
VERTEX
  8
Default
 10
0.0
 20
59.0
  0
SEQEND
  0
POLYLINE
  8
Default
 66
     1
 10
0.0
 20
0.0
 30
0.0
 70
     0
  0
VERTEX
  8
Default
 10
10.0
 20
42.0
  0
VERTEX
  8
Default
 10
15.0
 20
35.0
  0
VERTEX
  8
Default
 10
10.0
 20
42.0
  0
SEQEND
  0
POLYLINE
  8
Default
 66
     1
 10
0.0
 20
0.0
 30
0.0
 70
     0
  0
VERTEX
  8
Default
 10
20.0
 20
42.0
  0
VERTEX
  8
Default
 10
25.0
 20
35.0
  0
VERTEX
  8
Default
 10
20.0
 20
42.0
  0
SEQEND
  0
POLYLINE
  8
Default
 66
     1
 10
0.0
 20
0.0
 30
0.0
 70
     0
  0
VERTEX
  8
Default
 10
30.0
 20
42.0
  0
VERTEX
  8
Default
 10
35.0
 20
35.0
  0
VERTEX
  8
Default
 10
30.0
 20
42.0
  0
SEQEND
  0
POLYLINE
  8
Default
 66
     1
 10
0.0
 20
0.0
 30
0.0
 70
     0
  0
VERTEX
  8
Default
 10
10.0
 20
17.0
  0
VERTEX
  8
Default
 10
15.0
 20
24.0
  0
VERTEX
  8
Default
 10
10.0
 20
17.0
  0
SEQEND
  0
POLYLINE
  8
Default
 66
     1
 10
0.0
 20
0.0
 30
0.0
 70
     0
  0
VERTEX
  8
Default
 10
20.0
 20
17.0
  0
VERTEX
  8
Default
 10
25.0
 20
24.0
  0
VERTEX
  8
Default
 10
20.0
 20
17.0
  0
SEQEND
  0
POLYLINE
  8
Default
 66
     1
 10
0.0
 20
0.0
 30
0.0
 70
     0
  0
VERTEX
  8
Default
 10
30.0
 20
17.0
  0
VERTEX
  8
Default
 10
35.0
 20
24.0
  0
VERTEX
  8
Default
 10
30.0
 20
17.0
  0
SEQEND
  0
ENDSEC
  0
EOF
